ISO-10303-21;
HEADER;
/* Generated by software containing ST-Developer
 * from STEP Tools, Inc. (www.steptools.com) 
 */

FILE_DESCRIPTION(
/* description */ (''),
/* implementation_level */ '2;1');

FILE_NAME(
/* name */ 'SAH_65_C_N.dxf',
/* time_stamp */ '2012-11-23T16:49:25+08:00',
/* author */ (''),
/* organization */ (''),
/* preprocessor_version */ 'ST-DEVELOPER v9',
/* originating_system */ 'UGS - NX 4.0',
/* authorisation */ '');

FILE_SCHEMA (('CONFIG_CONTROL_DESIGN'));
ENDSEC;

DATA;
#10=SHAPE_REPRESENTATION_RELATIONSHIP('None',
'relationship between Admi5714xn62-None and Admi5714xn62-None',#94,#11);
#11=ADVANCED_BREP_SHAPE_REPRESENTATION('Admi5714xn62-None',(#95),#421);
#12=CC_DESIGN_APPROVAL(#24,(#82));
#13=CC_DESIGN_APPROVAL(#25,(#84));
#14=CC_DESIGN_APPROVAL(#26,(#31));
#15=APPROVAL_PERSON_ORGANIZATION(#69,#24,#18);
#16=APPROVAL_PERSON_ORGANIZATION(#70,#25,#19);
#17=APPROVAL_PERSON_ORGANIZATION(#71,#26,#20);
#18=APPROVAL_ROLE('approver');
#19=APPROVAL_ROLE('approver');
#20=APPROVAL_ROLE('approver');
#21=APPROVAL_DATE_TIME(#39,#24);
#22=APPROVAL_DATE_TIME(#40,#25);
#23=APPROVAL_DATE_TIME(#41,#26);
#24=APPROVAL(#27,' ');
#25=APPROVAL(#28,' ');
#26=APPROVAL(#29,' ');
#27=APPROVAL_STATUS('not_yet_approved');
#28=APPROVAL_STATUS('not_yet_approved');
#29=APPROVAL_STATUS('not_yet_approved');
#30=CC_DESIGN_SECURITY_CLASSIFICATION(#31,(#84));
#31=SECURITY_CLASSIFICATION(' ',' ',#32);
#32=SECURITY_CLASSIFICATION_LEVEL('confidential');
#33=CC_DESIGN_DATE_AND_TIME_ASSIGNMENT(#37,#35,(#82));
#34=CC_DESIGN_DATE_AND_TIME_ASSIGNMENT(#38,#36,(#31));
#35=DATE_TIME_ROLE('creation_date');
#36=DATE_TIME_ROLE('classification_date');
#37=DATE_AND_TIME(#52,#42);
#38=DATE_AND_TIME(#53,#43);
#39=DATE_AND_TIME(#54,#44);
#40=DATE_AND_TIME(#55,#45);
#41=DATE_AND_TIME(#56,#46);
#42=LOCAL_TIME(0,0,0.,#47);
#43=LOCAL_TIME(0,0,0.,#48);
#44=LOCAL_TIME(0,0,0.,#49);
#45=LOCAL_TIME(0,0,0.,#50);
#46=LOCAL_TIME(0,0,0.,#51);
#47=COORDINATED_UNIVERSAL_TIME_OFFSET(0,0,.BEHIND.);
#48=COORDINATED_UNIVERSAL_TIME_OFFSET(0,0,.BEHIND.);
#49=COORDINATED_UNIVERSAL_TIME_OFFSET(0,0,.BEHIND.);
#50=COORDINATED_UNIVERSAL_TIME_OFFSET(0,0,.BEHIND.);
#51=COORDINATED_UNIVERSAL_TIME_OFFSET(0,0,.BEHIND.);
#52=CALENDAR_DATE(0,1,1);
#53=CALENDAR_DATE(0,1,1);
#54=CALENDAR_DATE(0,1,1);
#55=CALENDAR_DATE(0,1,1);
#56=CALENDAR_DATE(0,1,1);
#57=CC_DESIGN_PERSON_AND_ORGANIZATION_ASSIGNMENT(#65,#61,(#82,#84));
#58=CC_DESIGN_PERSON_AND_ORGANIZATION_ASSIGNMENT(#66,#62,(#86));
#59=CC_DESIGN_PERSON_AND_ORGANIZATION_ASSIGNMENT(#67,#63,(#84));
#60=CC_DESIGN_PERSON_AND_ORGANIZATION_ASSIGNMENT(#68,#64,(#31));
#61=PERSON_AND_ORGANIZATION_ROLE('creator');
#62=PERSON_AND_ORGANIZATION_ROLE('design_owner');
#63=PERSON_AND_ORGANIZATION_ROLE('design_supplier');
#64=PERSON_AND_ORGANIZATION_ROLE('classification_officer');
#65=PERSON_AND_ORGANIZATION(#79,#72);
#66=PERSON_AND_ORGANIZATION(#79,#73);
#67=PERSON_AND_ORGANIZATION(#79,#74);
#68=PERSON_AND_ORGANIZATION(#79,#75);
#69=PERSON_AND_ORGANIZATION(#79,#76);
#70=PERSON_AND_ORGANIZATION(#79,#77);
#71=PERSON_AND_ORGANIZATION(#79,#78);
#72=ORGANIZATION(' ',' ',' ');
#73=ORGANIZATION(' ',' ',' ');
#74=ORGANIZATION(' ',' ',' ');
#75=ORGANIZATION(' ',' ',' ');
#76=ORGANIZATION(' ',' ',' ');
#77=ORGANIZATION(' ',' ',' ');
#78=ORGANIZATION(' ',' ',' ');
#79=PERSON(' ',' ',' ',(' '),$,$);
#80=SHAPE_DEFINITION_REPRESENTATION(#81,#94);
#81=PRODUCT_DEFINITION_SHAPE('','',#82);
#82=PRODUCT_DEFINITION(' ','',#84,#83);
#83=DESIGN_CONTEXT('',#93,'design');
#84=PRODUCT_DEFINITION_FORMATION_WITH_SPECIFIED_SOURCE(' ',' ',#86,.NOT_KNOWN.);
#85=PRODUCT_RELATED_PRODUCT_CATEGORY('detail','',(#86));
#86=PRODUCT('Admi5714xn62','Admi5714xn62',' ',(#91));
#87=PRODUCT_CATEGORY_RELATIONSHIP(' ',' ',#89,#90);
#88=PRODUCT_CATEGORY_RELATIONSHIP('','',#90,#85);
#89=PRODUCT_CATEGORY('part',' ');
#90=PRODUCT_CATEGORY(' ','');
#91=MECHANICAL_CONTEXT(' ',#93,'mechanical');
#92=APPLICATION_PROTOCOL_DEFINITION('international standard',
'config_control_design',1994,#93);
#93=APPLICATION_CONTEXT(
'configuration controlled 3D designs of mechanical parts and assemblies
');
#94=SHAPE_REPRESENTATION('Admi5714xn62-None',(#273),#421);
#95=MANIFOLD_SOLID_BREP('',#96);
#96=CLOSED_SHELL('',(#109,#110,#111,#112,#113,#114,#115,#116,#117,#118,#119,
#120,#121,#122,#123,#124));
#97=CONICAL_SURFACE('',#297,2.50856299999999,59.9999943788385);
#98=CONICAL_SURFACE('',#300,3.00856299999999,45.);
#99=CONICAL_SURFACE('',#304,1.5,45.);
#100=CONICAL_SURFACE('',#305,1.5,45.);
#101=CYLINDRICAL_SURFACE('',#280,32.4914369703733);
#102=CYLINDRICAL_SURFACE('',#289,13.491437);
#103=CYLINDRICAL_SURFACE('',#299,2.50856299999999);
#104=CYLINDRICAL_SURFACE('',#303,1.5);
#105=TOROIDAL_SURFACE('',#278,31.482499,1.00897800000001);
#106=TOROIDAL_SURFACE('',#282,31.500458,0.99101999999999);
#107=TOROIDAL_SURFACE('',#287,16.491437,3.);
#108=TOROIDAL_SURFACE('',#291,11.491437,2.);
#109=ADVANCED_FACE('',(#137,#129),#125,.T.);
#110=ADVANCED_FACE('',(#138,#139),#105,.T.);
#111=ADVANCED_FACE('',(#140,#141),#101,.T.);
#112=ADVANCED_FACE('',(#142,#143),#106,.T.);
#113=ADVANCED_FACE('',(#144,#130,#145),#126,.T.);
#114=ADVANCED_FACE('',(#146,#147),#107,.F.);
#115=ADVANCED_FACE('',(#148,#149),#102,.T.);
#116=ADVANCED_FACE('',(#150,#151),#108,.T.);
#117=ADVANCED_FACE('',(#152,#131),#127,.T.);
#118=ADVANCED_FACE('',(#132),#128,.T.);
#119=ADVANCED_FACE('',(#153,#133),#97,.F.);
#120=ADVANCED_FACE('',(#154,#155),#103,.F.);
#121=ADVANCED_FACE('',(#156,#134),#98,.F.);
#122=ADVANCED_FACE('',(#157,#158),#104,.F.);
#123=ADVANCED_FACE('',(#135,#159),#99,.F.);
#124=ADVANCED_FACE('',(#136,#160),#100,.F.);
#125=PLANE('',#276);
#126=PLANE('',#285);
#127=PLANE('',#293);
#128=PLANE('',#295);
#129=FACE_OUTER_BOUND('',#162,.T.);
#130=FACE_OUTER_BOUND('',#170,.T.);
#131=FACE_OUTER_BOUND('',#179,.T.);
#132=FACE_OUTER_BOUND('',#180,.T.);
#133=FACE_OUTER_BOUND('',#182,.T.);
#134=FACE_OUTER_BOUND('',#186,.T.);
#135=FACE_OUTER_BOUND('',#189,.T.);
#136=FACE_OUTER_BOUND('',#191,.T.);
#137=FACE_BOUND('',#161,.T.);
#138=FACE_BOUND('',#163,.T.);
#139=FACE_BOUND('',#164,.T.);
#140=FACE_BOUND('',#165,.T.);
#141=FACE_BOUND('',#166,.T.);
#142=FACE_BOUND('',#167,.T.);
#143=FACE_BOUND('',#168,.T.);
#144=FACE_BOUND('',#169,.T.);
#145=FACE_BOUND('',#171,.T.);
#146=FACE_BOUND('',#172,.T.);
#147=FACE_BOUND('',#173,.T.);
#148=FACE_BOUND('',#174,.T.);
#149=FACE_BOUND('',#175,.T.);
#150=FACE_BOUND('',#176,.T.);
#151=FACE_BOUND('',#177,.T.);
#152=FACE_BOUND('',#178,.T.);
#153=FACE_BOUND('',#181,.T.);
#154=FACE_BOUND('',#183,.T.);
#155=FACE_BOUND('',#184,.T.);
#156=FACE_BOUND('',#185,.T.);
#157=FACE_BOUND('',#187,.T.);
#158=FACE_BOUND('',#188,.T.);
#159=FACE_BOUND('',#190,.T.);
#160=FACE_BOUND('',#192,.T.);
#161=EDGE_LOOP('',(#193));
#162=EDGE_LOOP('',(#194));
#163=EDGE_LOOP('',(#195));
#164=EDGE_LOOP('',(#196));
#165=EDGE_LOOP('',(#197));
#166=EDGE_LOOP('',(#198));
#167=EDGE_LOOP('',(#199));
#168=EDGE_LOOP('',(#200));
#169=EDGE_LOOP('',(#201));
#170=EDGE_LOOP('',(#202));
#171=EDGE_LOOP('',(#203));
#172=EDGE_LOOP('',(#204));
#173=EDGE_LOOP('',(#205));
#174=EDGE_LOOP('',(#206));
#175=EDGE_LOOP('',(#207));
#176=EDGE_LOOP('',(#208));
#177=EDGE_LOOP('',(#209));
#178=EDGE_LOOP('',(#210));
#179=EDGE_LOOP('',(#211));
#180=EDGE_LOOP('',(#212));
#181=EDGE_LOOP('',(#213));
#182=EDGE_LOOP('',(#214));
#183=EDGE_LOOP('',(#215));
#184=EDGE_LOOP('',(#216));
#185=EDGE_LOOP('',(#217));
#186=EDGE_LOOP('',(#218));
#187=EDGE_LOOP('',(#219));
#188=EDGE_LOOP('',(#220));
#189=EDGE_LOOP('',(#221));
#190=EDGE_LOOP('',(#222));
#191=EDGE_LOOP('',(#223));
#192=EDGE_LOOP('',(#224));
#193=ORIENTED_EDGE('',*,*,#241,.T.);
#194=ORIENTED_EDGE('',*,*,#242,.F.);
#195=ORIENTED_EDGE('',*,*,#242,.T.);
#196=ORIENTED_EDGE('',*,*,#243,.F.);
#197=ORIENTED_EDGE('',*,*,#243,.T.);
#198=ORIENTED_EDGE('',*,*,#244,.F.);
#199=ORIENTED_EDGE('',*,*,#244,.T.);
#200=ORIENTED_EDGE('',*,*,#245,.F.);
#201=ORIENTED_EDGE('',*,*,#246,.T.);
#202=ORIENTED_EDGE('',*,*,#245,.T.);
#203=ORIENTED_EDGE('',*,*,#247,.F.);
#204=ORIENTED_EDGE('',*,*,#247,.T.);
#205=ORIENTED_EDGE('',*,*,#248,.F.);
#206=ORIENTED_EDGE('',*,*,#248,.T.);
#207=ORIENTED_EDGE('',*,*,#249,.F.);
#208=ORIENTED_EDGE('',*,*,#249,.T.);
#209=ORIENTED_EDGE('',*,*,#250,.F.);
#210=ORIENTED_EDGE('',*,*,#251,.F.);
#211=ORIENTED_EDGE('',*,*,#250,.T.);
#212=ORIENTED_EDGE('',*,*,#252,.T.);
#213=ORIENTED_EDGE('',*,*,#252,.F.);
#214=ORIENTED_EDGE('',*,*,#253,.T.);
#215=ORIENTED_EDGE('',*,*,#253,.F.);
#216=ORIENTED_EDGE('',*,*,#254,.T.);
#217=ORIENTED_EDGE('',*,*,#254,.F.);
#218=ORIENTED_EDGE('',*,*,#251,.T.);
#219=ORIENTED_EDGE('',*,*,#255,.T.);
#220=ORIENTED_EDGE('',*,*,#256,.T.);
#221=ORIENTED_EDGE('',*,*,#241,.F.);
#222=ORIENTED_EDGE('',*,*,#255,.F.);
#223=ORIENTED_EDGE('',*,*,#246,.F.);
#224=ORIENTED_EDGE('',*,*,#256,.F.);
#225=VERTEX_POINT('',#374);
#226=VERTEX_POINT('',#376);
#227=VERTEX_POINT('',#379);
#228=VERTEX_POINT('',#382);
#229=VERTEX_POINT('',#385);
#230=VERTEX_POINT('',#388);
#231=VERTEX_POINT('',#390);
#232=VERTEX_POINT('',#393);
#233=VERTEX_POINT('',#396);
#234=VERTEX_POINT('',#399);
#235=VERTEX_POINT('',#402);
#236=VERTEX_POINT('',#405);
#237=VERTEX_POINT('',#408);
#238=VERTEX_POINT('',#411);
#239=VERTEX_POINT('',#415);
#240=VERTEX_POINT('',#417);
#241=EDGE_CURVE('',#225,#225,#257,.T.);
#242=EDGE_CURVE('',#226,#226,#258,.T.);
#243=EDGE_CURVE('',#227,#227,#259,.T.);
#244=EDGE_CURVE('',#228,#228,#260,.T.);
#245=EDGE_CURVE('',#229,#229,#261,.T.);
#246=EDGE_CURVE('',#230,#230,#262,.T.);
#247=EDGE_CURVE('',#231,#231,#263,.T.);
#248=EDGE_CURVE('',#232,#232,#264,.T.);
#249=EDGE_CURVE('',#233,#233,#265,.T.);
#250=EDGE_CURVE('',#234,#234,#266,.T.);
#251=EDGE_CURVE('',#235,#235,#267,.T.);
#252=EDGE_CURVE('',#236,#236,#268,.T.);
#253=EDGE_CURVE('',#237,#237,#269,.T.);
#254=EDGE_CURVE('',#238,#238,#270,.T.);
#255=EDGE_CURVE('',#239,#239,#271,.T.);
#256=EDGE_CURVE('',#240,#240,#272,.T.);
#257=CIRCLE('',#274,2.);
#258=CIRCLE('',#275,31.4914369382613);
#259=CIRCLE('',#277,32.491437);
#260=CIRCLE('',#279,32.4914369407466);
#261=CIRCLE('',#281,31.491437);
#262=CIRCLE('',#283,2.);
#263=CIRCLE('',#284,16.491437);
#264=CIRCLE('',#286,13.491437);
#265=CIRCLE('',#288,13.491437);
#266=CIRCLE('',#290,11.491437);
#267=CIRCLE('',#292,3.00856299999999);
#268=CIRCLE('',#294,0.0085630000000031);
#269=CIRCLE('',#296,2.50856299999999);
#270=CIRCLE('',#298,2.50856299999999);
#271=CIRCLE('',#301,1.5);
#272=CIRCLE('',#302,1.5);
#273=AXIS2_PLACEMENT_3D('',#372,#306,#307);
#274=AXIS2_PLACEMENT_3D('',#373,#308,#309);
#275=AXIS2_PLACEMENT_3D('',#375,#310,#311);
#276=AXIS2_PLACEMENT_3D('',#377,#312,#313);
#277=AXIS2_PLACEMENT_3D('',#378,#314,#315);
#278=AXIS2_PLACEMENT_3D('',#380,#316,#317);
#279=AXIS2_PLACEMENT_3D('',#381,#318,#319);
#280=AXIS2_PLACEMENT_3D('',#383,#320,#321);
#281=AXIS2_PLACEMENT_3D('',#384,#322,#323);
#282=AXIS2_PLACEMENT_3D('',#386,#324,#325);
#283=AXIS2_PLACEMENT_3D('',#387,#326,#327);
#284=AXIS2_PLACEMENT_3D('',#389,#328,#329);
#285=AXIS2_PLACEMENT_3D('',#391,#330,#331);
#286=AXIS2_PLACEMENT_3D('',#392,#332,#333);
#287=AXIS2_PLACEMENT_3D('',#394,#334,#335);
#288=AXIS2_PLACEMENT_3D('',#395,#336,#337);
#289=AXIS2_PLACEMENT_3D('',#397,#338,#339);
#290=AXIS2_PLACEMENT_3D('',#398,#340,#341);
#291=AXIS2_PLACEMENT_3D('',#400,#342,#343);
#292=AXIS2_PLACEMENT_3D('',#401,#344,#345);
#293=AXIS2_PLACEMENT_3D('',#403,#346,#347);
#294=AXIS2_PLACEMENT_3D('',#404,#348,#349);
#295=AXIS2_PLACEMENT_3D('',#406,#350,#351);
#296=AXIS2_PLACEMENT_3D('',#407,#352,#353);
#297=AXIS2_PLACEMENT_3D('',#409,#354,#355);
#298=AXIS2_PLACEMENT_3D('',#410,#356,#357);
#299=AXIS2_PLACEMENT_3D('',#412,#358,#359);
#300=AXIS2_PLACEMENT_3D('',#413,#360,#361);
#301=AXIS2_PLACEMENT_3D('',#414,#362,#363);
#302=AXIS2_PLACEMENT_3D('',#416,#364,#365);
#303=AXIS2_PLACEMENT_3D('',#418,#366,#367);
#304=AXIS2_PLACEMENT_3D('',#419,#368,#369);
#305=AXIS2_PLACEMENT_3D('',#420,#370,#371);
#306=DIRECTION('',(0.,0.,1.));
#307=DIRECTION('',(1.,0.,0.));
#308=DIRECTION('',(1.,0.,0.));
#309=DIRECTION('',(0.,0.,1.));
#310=DIRECTION('',(1.,0.,0.));
#311=DIRECTION('',(0.,0.,-1.));
#312=DIRECTION('',(-1.,0.,0.));
#313=DIRECTION('',(0.,0.,1.));
#314=DIRECTION('',(1.,0.,0.));
#315=DIRECTION('',(0.,0.,-1.));
#316=DIRECTION('',(1.,0.,0.));
#317=DIRECTION('',(0.,0.,-1.));
#318=DIRECTION('',(1.,0.,0.));
#319=DIRECTION('',(0.,0.,-1.));
#320=DIRECTION('',(1.,0.,0.));
#321=DIRECTION('',(0.,0.,-1.));
#322=DIRECTION('',(1.,0.,0.));
#323=DIRECTION('',(0.,0.,-1.));
#324=DIRECTION('',(1.,0.,0.));
#325=DIRECTION('',(0.,0.,-1.));
#326=DIRECTION('',(-1.,0.,0.));
#327=DIRECTION('',(0.,0.,-1.));
#328=DIRECTION('',(1.,0.,0.));
#329=DIRECTION('',(0.,0.,-1.));
#330=DIRECTION('',(1.,0.,0.));
#331=DIRECTION('',(0.,0.,-1.));
#332=DIRECTION('',(1.,0.,0.));
#333=DIRECTION('',(0.,0.,-1.));
#334=DIRECTION('',(1.,0.,0.));
#335=DIRECTION('',(0.,0.,-1.));
#336=DIRECTION('',(1.,0.,0.));
#337=DIRECTION('',(0.,0.,-1.));
#338=DIRECTION('',(1.,0.,0.));
#339=DIRECTION('',(0.,0.,-1.));
#340=DIRECTION('',(1.,0.,0.));
#341=DIRECTION('',(0.,0.,-1.));
#342=DIRECTION('',(1.,0.,0.));
#343=DIRECTION('',(0.,0.,-1.));
#344=DIRECTION('',(1.,0.,0.));
#345=DIRECTION('',(0.,0.,-1.));
#346=DIRECTION('',(1.,0.,0.));
#347=DIRECTION('',(0.,0.,-1.));
#348=DIRECTION('',(1.,0.,0.));
#349=DIRECTION('',(0.,0.,-1.));
#350=DIRECTION('',(1.,0.,0.));
#351=DIRECTION('',(0.,0.,-1.));
#352=DIRECTION('',(1.,0.,0.));
#353=DIRECTION('',(0.,0.,-1.));
#354=DIRECTION('',(1.,0.,0.));
#355=DIRECTION('',(-4.80045521059647E-017,0.,-1.));
#356=DIRECTION('',(1.,0.,0.));
#357=DIRECTION('',(0.,0.,-1.));
#358=DIRECTION('',(1.,0.,0.));
#359=DIRECTION('',(0.,0.,-1.));
#360=DIRECTION('',(1.,0.,0.));
#361=DIRECTION('',(-5.53446433849218E-017,0.,-1.));
#362=DIRECTION('',(-1.,0.,0.));
#363=DIRECTION('',(0.,0.,1.));
#364=DIRECTION('',(1.,0.,0.));
#365=DIRECTION('',(0.,0.,-1.));
#366=DIRECTION('',(-1.,0.,0.));
#367=DIRECTION('',(0.,0.,1.));
#368=DIRECTION('',(-1.,0.,0.));
#369=DIRECTION('',(0.,0.,1.));
#370=DIRECTION('',(1.,0.,0.));
#371=DIRECTION('',(-2.77140046087159E-017,0.,-1.));
#372=CARTESIAN_POINT('',(0.,0.,0.));
#373=CARTESIAN_POINT('',(147.999999794363,47.,0.));
#374=CARTESIAN_POINT('',(147.999999794363,47.,2.));
#375=CARTESIAN_POINT('',(147.999999588726,69.854452,0.));
#376=CARTESIAN_POINT('',(147.999999588726,69.854452,-31.4914369382613));
#377=CARTESIAN_POINT('',(147.999999794363,101.345889,0.));
#378=CARTESIAN_POINT('',(149.,69.854452,0.));
#379=CARTESIAN_POINT('',(149.,69.854452,-32.491437));
#380=CARTESIAN_POINT('',(149.008938,69.854452,0.));
#381=CARTESIAN_POINT('',(160.999999947031,69.854452,0.));
#382=CARTESIAN_POINT('',(160.999999947031,69.854452,-32.4914369407466));
#383=CARTESIAN_POINT('',(184.604891,69.854452,0.));
#384=CARTESIAN_POINT('',(162.,69.854452,0.));
#385=CARTESIAN_POINT('',(162.,69.854452,-31.491437));
#386=CARTESIAN_POINT('',(161.009021,69.854452,0.));
#387=CARTESIAN_POINT('',(162.,47.,0.));
#388=CARTESIAN_POINT('',(162.,47.,-2.));
#389=CARTESIAN_POINT('',(162.,69.854452,0.));
#390=CARTESIAN_POINT('',(162.,69.854452,-16.491437));
#391=CARTESIAN_POINT('',(162.,86.345889,0.));
#392=CARTESIAN_POINT('',(165.,69.854452,0.));
#393=CARTESIAN_POINT('',(165.,69.854452,-13.491437));
#394=CARTESIAN_POINT('',(165.,69.854452,0.));
#395=CARTESIAN_POINT('',(178.,69.854452,0.));
#396=CARTESIAN_POINT('',(178.,69.854452,-13.491437));
#397=CARTESIAN_POINT('',(184.604891,69.854452,0.));
#398=CARTESIAN_POINT('',(180.,69.854452,0.));
#399=CARTESIAN_POINT('',(180.,69.854452,-11.491437));
#400=CARTESIAN_POINT('',(178.,69.854452,0.));
#401=CARTESIAN_POINT('',(180.,69.854452,0.));
#402=CARTESIAN_POINT('',(180.,69.854452,-3.00856299999999));
#403=CARTESIAN_POINT('',(180.,72.845889,0.));
#404=CARTESIAN_POINT('',(168.556624,69.854452,0.));
#405=CARTESIAN_POINT('',(168.556624,69.854452,-0.0085630000000031));
#406=CARTESIAN_POINT('',(168.556624,69.854452,0.));
#407=CARTESIAN_POINT('',(170.,69.854452,0.));
#408=CARTESIAN_POINT('',(170.,69.854452,-2.50856299999999));
#409=CARTESIAN_POINT('',(170.,69.854452,0.));
#410=CARTESIAN_POINT('',(179.5,69.854452,0.));
#411=CARTESIAN_POINT('',(179.5,69.854452,-2.50856299999999));
#412=CARTESIAN_POINT('',(184.604891,69.854452,0.));
#413=CARTESIAN_POINT('',(180.,69.854452,0.));
#414=CARTESIAN_POINT('',(148.499999794363,47.,0.));
#415=CARTESIAN_POINT('',(148.499999794363,47.,1.5));
#416=CARTESIAN_POINT('',(161.5,47.,0.));
#417=CARTESIAN_POINT('',(161.5,47.,-1.5));
#418=CARTESIAN_POINT('',(223.,47.,0.));
#419=CARTESIAN_POINT('',(148.499999794363,47.,0.));
#420=CARTESIAN_POINT('',(161.5,47.,0.));
#421=(
GEOMETRIC_REPRESENTATION_CONTEXT(3)
GLOBAL_UNCERTAINTY_ASSIGNED_CONTEXT((#422))
GLOBAL_UNIT_ASSIGNED_CONTEXT((#428,#424,#423))
REPRESENTATION_CONTEXT('SAH_65_C_N','TOP_LEVEL_ASSEMBLY_PART')
);
#422=UNCERTAINTY_MEASURE_WITH_UNIT(LENGTH_MEASURE(2.E-005),#428,
'DISTANCE_ACCURACY_VALUE','Maximum Tolerance applied to model');
#423=(
NAMED_UNIT(*)
SI_UNIT($,.STERADIAN.)
SOLID_ANGLE_UNIT()
);
#424=(
CONVERSION_BASED_UNIT('DEGREE',#426)
NAMED_UNIT(#425)
PLANE_ANGLE_UNIT()
);
#425=DIMENSIONAL_EXPONENTS(0.,0.,0.,0.,0.,0.,0.);
#426=PLANE_ANGLE_MEASURE_WITH_UNIT(PLANE_ANGLE_MEASURE(0.0174532925),#427);
#427=(
NAMED_UNIT(*)
PLANE_ANGLE_UNIT()
SI_UNIT($,.RADIAN.)
);
#428=(
LENGTH_UNIT()
NAMED_UNIT(*)
SI_UNIT(.MILLI.,.METRE.)
);
ENDSEC;
END-ISO-10303-21;
